Make your own free website on Tripod.com
Main Page
The Group
Lyrics & Tabs
Multimedia
Prodigy Links
Contact Me

Breathe Guitar Tab


Notes for Breathe by Daniel Chinn:
G G Bflat Bflat Gsharp Gsharp F F F 

If you have corrections, please let me know!

Transcription 1: 
Transcribed by Martin Cregg-Guinan 

MAIN RIFF 
----------------------------------------------------------- 
----------------------------------------------------------- 
----------------------------------------------------------- 
----------------------------------------------------------- 
---7-----7-----10-----10--9---7--9----6-----6-----6-------- 
------0-----0------0---------------------0-----0-----0----- 
  

THEN THE CHORD BIT: 

          B5       Bb5     A5    E5 
        (7TH FRET)(6TH)  (5TH) (7TH) 

  
        THEN: 

         G5     F#5     E5    Eb5 
       (10TH)  (9TH)  (7TH)  (6TH) 


______________________________________________________________________


Transcription 2: 

INTRO:  (SYNTH. ARRANGED FOR GUITAR) 

E|--------------------------------------------- 
B|--------------------------------------------- 
G|--------------------------------------------- 
D|--1--1--1-1--4--3--0-0-0--0-0---------------- 
A|--------------------------------------------- 
E|--------------------------------------------- 

VERSE: ( W/fuzz) 

E|----------------------------------------------- 
B|---------------------------------3-/-4--------- 
G|--8--/--7--/--6--/--4------------5^-/-6^------- 
D|--8--/--7--/--6--/--4-------------------------- 
A|--6--/--5--/--4--/--2-------------------------- 
E|----------------------------------------------- 

QUIET PART: (might be synth or allunimum/acoustic 
(clean)     this is the best I can come up with.) 

E|------------------------------------------------------------- 
B|------------------------------------------------------------- 
G|------------------------------------------------------------- 
D|--10--10--10--10---10-/--9--9-9-/--7-/--6-6-/--7------------- 
A|---8---8---8---8----8-/--7--7-7-/--5-/--4-4-/--5------------- 
E|-------------------------------------------------------------

Some parts might be off but
its not even worth playing if
you cannot improvise. Listen
to the Song to get the order
and rhythm right.


______________________________________________________________________

  
Transcription 3: 
Tabbed by: Gavin Holland  

This is a pretty cool sounding, depressing/sad riff. Do a mild 
vibrato throughout to make it sound shaky, and slide to every 
note. It should be played with acoustic guitar, but sounds okay 
with electric. 

/ means slide up 

E|--------------------------------------------------------|R 
B|--------------------------------------------------------|E 
G|--------------------------------------------------------|P 
D|--------------------------------------------------------|E 
A|-10-------10-------10---9-9----9-9-7---7-6---6-5-6-/----|A 
E|--0--------0--------0---0-0----0-0-0---0-0---0-0-0-/----|T 
  
There's too many strums to write out the rhythm  
so you have to figure it out.