Make your own free website on Tripod.com
Tabs
Liam Howlett - The Prodigy
Go back
Firestarter - Guitar Tab

Breathe - Guitar Tab

Their Law - Guitar Tab

One Man Army - Guitar Tab

Firestarter - Drum Tab




Firestarter - Guitar Tab

Intro:  (W DIST. & wah) 
E|-------------------------------------------------------- 
B|---11-----11------11-----/---9-------/-11-----/-13------ 
G|---13^----13^-----13^----/---11^-----/-13^----/-15^----- 
D|-------------------------------------------------------- 
A|-------(double bends)----------------------------------- 
E|-------------------------------------------------------- 

Verse:  (W DIST. & wah) 

E|---------------------------------------------------------- 
B|---------------------------------------------------------- 
G|--14--14--14--14--14--14--14---etc.----------------------- 
D|---------------------------------------------------------- 
A|---------------------------------------------------------- 
E|---------------------------------------------------------- 

Iím the firestarter   |   twisted firestarter

E|------------------------------------------------------- 
B|------------------------------------------------------- 
G|-13-13-13-13-13-13/14-14-14-14-14-14------------------- 
D|------------------------------------------------------- 
A|------------------------------------------------------- 
E|------------------------------------------------------- 
  
Transcribed by Spork. 


go to top


























Breathe - Guitar Tabs

Notes for Breathe by Daniel Chinn:
G G Bflat Bflat Gsharp Gsharp F F F 

If you have corrections, please let me know!

Transcription 1: 
Transcribed by Martin Cregg-Guinan 

MAIN RIFF 
----------------------------------------------------------- 
----------------------------------------------------------- 
----------------------------------------------------------- 
----------------------------------------------------------- 
---7-----7-----10-----10--9---7--9----6-----6-----6-------- 
------0-----0------0---------------------0-----0-----0----- 
  

THEN THE CHORD BIT: 

          B5       Bb5     A5    E5 
        (7TH FRET)(6TH)  (5TH) (7TH) 

  
        THEN: 

         G5     F#5     E5    Eb5 
       (10TH)  (9TH)  (7TH)  (6TH) 


______________________________________________________________________


Transcription 2: 

INTRO:  (SYNTH. ARRANGED FOR GUITAR) 

E|--------------------------------------------- 
B|--------------------------------------------- 
G|--------------------------------------------- 
D|--1--1--1-1--4--3--0-0-0--0-0---------------- 
A|--------------------------------------------- 
E|--------------------------------------------- 

VERSE: ( W/fuzz) 

E|----------------------------------------------- 
B|---------------------------------3-/-4--------- 
G|--8--/--7--/--6--/--4------------5^-/-6^------- 
D|--8--/--7--/--6--/--4-------------------------- 
A|--6--/--5--/--4--/--2-------------------------- 
E|----------------------------------------------- 

QUIET PART: (might be synth or allunimum/acoustic 
(clean)     this is the best I can come up with.) 

E|------------------------------------------------------------- 
B|------------------------------------------------------------- 
G|------------------------------------------------------------- 
D|--10--10--10--10---10-/--9--9-9-/--7-/--6-6-/--7------------- 
A|---8---8---8---8----8-/--7--7-7-/--5-/--4-4-/--5------------- 
E|-------------------------------------------------------------

Some parts might be off but
its not even worth playing if
you cannot improvise. Listen
to the Song to get the order
and rhythm right.


______________________________________________________________________

  
Transcription 3: 
Tabbed by: Gavin Holland  

This is a pretty cool sounding, depressing/sad riff. Do a mild 
vibrato throughout to make it sound shaky, and slide to every 
note. It should be played with acoustic guitar, but sounds okay 
with electric. 

/ means slide up 

E|--------------------------------------------------------|R 
B|--------------------------------------------------------|E 
G|--------------------------------------------------------|P 
D|--------------------------------------------------------|E 
A|-10-------10-------10---9-9----9-9-7---7-6---6-5-6-/----|A 
E|--0--------0--------0---0-0----0-0-0---0-0---0-0-0-/----|T 
  
There's too many strums to write out the rhythm  
so you have to figure it out. 
  

go to top


























Their Law - Guitar Tabs

Their Law
Liam Howlett has been asked many times by people in the rock
industry how he got the guitars to sound like that.
The answer is: "I time-stretched them!" 

Transcription 1: 

Note:  Drop-D Tuning!! 


Intro/Verse/Etc: 
---------------- 

Spoken: "What we're dealing with here is a total lack of respect for the law" 
  
Play: (fast) 
   A      Bb G 
e:------------------------------------------------| 
B:------------------------------------------------| 
G:------------------------------------------------|x lots 
D:-7-7-7-7-8-5--7-7-7-7-8-5--7-7-7-7-7-7-7-7-8-5--| 
A:-7-7-7-7-8-5--7-7-7-7-8-5--7-7-7-7-7-7-7-7-8-5--| 
D:-7-7-7-7-8-5--7-7-7-7-8-5--7-7-7-7-7-7-7-7-8-5--| 

then: 

     C           C# B 
e:-------------------------------------------------------------------- 
B:--------------------------------------------------------------------| 
G:--------------------------------------------------------------------| 
D:---10-10-10-10-11-8--10-10-10-10-11-8--10-10-10-10-10-10-10-10-11-8-|xlots 
A:---10-10-10-10-11-8--10-10-10-10-11-8--10-10-10-10-10-10-10-10-11-8-|too 
D:---10-10-10-10-11-8--10-10-10-10-11-8--10-10-10-10-10-10-10-10-11-8-| 

then go back to the first riff and play it again 

Then: 
Break: 
------ 

"fuck'em and their law" 

    D     D                        G  F# G  F# 
e:---------------------------------------------| 
B:---------------------------------------------| 
G:---------------------------------------------| 
D:--0--0--12---0--12-----0--0--12--------------| 
A:--0--0--12---0--12-----0--0--12--3--2--3--2--| 
D:--0--0--12---0--12-----0--0--12--3--2--3--2--| 
  

e:------------------------------------------| 
B:------------------------------------------| 
G:------------------------------------------| 
D:--0--0--12--0--12----0--0--12----16-17-13-| 
A:--0--0--12--0--12----0--0--12-------------| 
D:--0--0--12--0--12----0--0--12-------------| 

Play many times 

Further down the song play this (over previous bit): 
e:---------------------------|--------------------------------| 
B:---------------------------|----------------15-15-15-13-15--| 
G:------15-14-12--15-14-12---|-------15-14-12-----------------| 
D:--0------------------------|---0----------------------------| 
A:--0------------------------|---0----------------------------| 
D:--0------------------------|---0----------------------------| 


______________________________________________________________________

 
Transcription 2: 

This is the fast beginning part that will make your fingers hurt. 
  
G:|----------------------------------| 
D:|----------------------------------| 
A:|----------------------------------| 
E:|-2222-3-0--2222-3-0--22222222-3-0-| 

G:|----------------------------------| 
D:|----------------------------------| 
A:|-2222-3-0--2222-3-0--22222222-3-0-| 
E:|----------------------------------| 

G:|----------------------------------| 
D:|----------------------------------| 
A:|-555-X-55-55-7-8-7----------------| 
E:|----------------------------------| 

G:|----------------------------------| 
D:|----------------------------------| 
A:|-555-X-55-55-9-10-9-6-------------| 
E:|----------------------------------| 
  
tabbed by Noah
  

go to top


























One Man Army - Guitar Tab

One Man Army
No Man Army Guitars by Tom Morello, the guitarist of Rage Against The Machine. 

Transcription by Kenny Luong
Taken from Juge's Prodigy Pages.

Intro: 

E|-----------| 
B|-----------| 
G|-----------| 
D|-----------| 
A|-----------| 
E|--2--5--3--| 

E|-----------------------------------------------------------| 
B|-----------------------------------------------------------| 
G|-----------------------------------------------------------| 
D|-----------------------------------------------------------| 
A|-----------------------------------------------2--4--------| 
E|--3h2-0-0-00--3h2-0-0-00--3h2-0-0-00--3h2-0-3--------0--2--| 

E|-----------------------------------------------------------------| 
B|-----------------------------------------------------------------| 
G|--------------------------------------------------------2--------| 
D|-----------------------------------------4--2--4--2--4-----4--3--| 
A|-----------------------------------------------------------------| 
E|--3h2-0-0-00--3h2-0-0-00--3h2-0-0-00--3--------------------------| 

E|--------------------------------| 
B|--------------------------------| 
G|-----------------------2--------| 
D|--------4--2--4--2--4-----4--3--| 
A|--3--3--------------------------|  
E|--------------------------------| 

E|-----------------------| 
B|-----------------------| 
G|-----------------------| 
D|-----------3-----------| 
A|--3--3--5------5--3/1--| 
E|-----------------------| 

E|----------| 
B|----------| 
G|--6----6--| 
D|----------| 
A|----------| 
E|----------| 

Verse 
E|--------|------| 
B|--------|--^7--| 
G|--------|------| 
D|--4--4--|------| 
A|--2--2--|------| 
E|--------|------| 

To get that biping distortion noise at the end of these riffs,
Karate chop the strings near the bridge while toggling the
pickup switch (Off and On). This riff appears often so listen out for it. 

Pre Chorus 
E|--------------------------| 
B|--------------------------| 
G|-----------------2--------| 
D|--4--2--4--2--4-----4--3--| 
A|--------------------------| 
E|--------------------------| 

E|--------| 
B|--------| 
G|--------| 
D|--4--4--| 
A|--2--2--| 
E|--------| 

E|-----------------| 
B|-----------------| 
G|-----------------| 
D|------4-4-4------| 
A|--3-----------3--| 
E|-----------------| 

1st Chorus 
E|-----------| 
B|-----------| 
G|-----------| 
D|-----------| 
A|-----------| 
E|--2--5--3--| 

E|-----------------------------------------------------------| 
B|-----------------------------------------------------------| 
G|-----------------------------------------------------------| 
D|-----------------------------------------------------------| 
A|-----------------------------------------------2--4--------| 
E|--3h2-0-0-00--3h2-0-0-00--3h2-0-0-00--3h2-0-3--------0--2--| 

E|-----------------------------------------------------------------| 
B|-----------------------------------------------------------------| 
G|--------------------------------------------------------2--------| 
D|-----------------------------------------4--2--4--2--4-----4--3--| 
A|-----------------------------------------------------------------| 
E|--3h2-0-0-00--3h2-0-0-00--3h2-0-0-00--3--------------------------| 

E|----------| 
B|----------| 
G|--6----6--| 
D|----------| 
A|----------| 
E|----------| 

Do some bulls on parade style scratching on the strings by rubbing
your fingers on the 6th and 5th string while toggling the pickup
switch (Off and On). This riff occurs often so listen out for it. 

2nd Chorus 
E|--------| 
B|--------| 
G|--------| 
D|--4--4--| 
A|--2--2--| 
E|--------| 

E|----------------------------------------| 
B|----------------------------------------| 
G|--15/13/15/13/15--13-16-13-13-16-13-13--| 
D|----------------------------------------| 
A|----------------------------------------| 
E|----------------------------------------| 

Outro 
E|-----------------------| 
B|-----------------------| 
G|-----------------------| 
D|-----------3-----------| 
A|--3--3--5------5--3/1--| 
E|-----------------------| 

E|-------------------------------| 
B|-------------------------------| 
G|----------------------2--------| 
D|-------4--2--4--2--4-----4--3--| 
A|-3--3--------------------------| 
E|-------------------------------| 

go to top


























Firestarter - Drum Tab
tabbed by Kenn Hodges at nirvanadave@hotmail.com
______________________________________________________________________

NOTES: Prodigy uses a drum machine to create their songs but it is still
possible to play some of there songs but with a little revising for
instance there rolls. When you hit the snare don't hit in the center hit
around the edges. Make the High Hat really crisp and tight.
______________________________________________________________________

Key:HH=High Hat(@ means loose HH)
    SD=Snare Drum
    BD=Bass Drum
    CYM=Crash Cymbol 
    >= when its over a note accent it(just snare) 
______________________________________________________________________

       Repeat this 7 times
     _________________________________
    /                                 \
CYM X---------------|-----------------|
BD  0---------------|-----------------|

       Repeat 17 times
     ________________________________
    /                                \ >  > >>>  > >   
HH  @-o-o-o-o-o-o-o-|@-o-o-o-o-o-o-o-|----------------| 
SD  ----o--o-o--o---|----o--o-o--o--o|ooooo-ooo-oooooo|
BD  0-------------0-|0---------------|----------------|

       Repeat this 15 times
     ________________________________
    /                                \
CYM X---------------|----------------|
BD  0---------------|----------------|

       Repeat this 5 times
     ________________________________
    /                                \
HH  @-o-o-o-o-o-o-o-|@-o-o-o-o-o-o-o-|
SD  ----o--o-o--o---|----o--o-o--o--o|
BD  0-------------0-|0---------------|
   
      Repeat 6 times
     _______________
    /               \
        > > >  > > >
CYM X---------------|
SD  o-ooo-oooo-o-ooo|
BD  0----------0----|

        

go to top